merle haggard silverthorn mountain

Discussion in 'Tab, Tips, Theory and Technique' started by johnny k, Apr 2, 2020.

  1. johnny k

    johnny k Friend of Leo's

    Posts:
    4,431
    Joined:
    Jan 15, 2011
    Location:
    France
    e---------------------------------------------------------------------------6-9-7---
    b-----------------5----5-8-7-5-7----5-5b1/2step----5--5-----5-8-5-8------------
    g------------4-6----6-------------6-----------------6-------6-----------------------
    d-----2-4/6--------------------------------------------------------------------------
    a-2/4--------------------------------------------------------------------------------
    e-------------------------------------------------------------------------------------


    e------------7-9-11-12-11-9----------------------9-8-7--10-8-9------------------
    b-10-7-8-9--------------------12-11-10-12-8/9-------------------10-9-----12---
    g---------------------------------------------------------------------------11-------
    d-------------------------------------------------------------------------------------
    a-------------------------------------------------------------------------------------
    e-------------------------------------------------------------------------------------

    e-------------12-16-13-14--12/11-14-12-11/10-14---10-9--------------------------------
    b---------14-----------------------------------------------------12-11-10-10h12po10/9---
    g-13-14---------------------------------------------------------------------------------------
    d----------------------------------------------------------------------------------------------
    a----------------------------------------------------------------------------------------------
    e----------------------------------------------------------------------------------------------

    e----------------------------------------------------------------------------------
    b---------------7-5-7po5---------------------------5-------7------8------9-----
    g-11-9-7-5/6--------------6/4/2----2-4-2--------------------------------------
    d-----------------------------------4---------4-5/6----6/7----7/8----8/9-------
    a----------------------------------------------------------------------------------
    e---------------------------------------------------------------------------------

    e-----------------------------------------------------10----------------------------
    b----------------------------------------------------------10bend1step-8/9-------
    g-------9-11b1step-9-----9-11-9-----9b1/2step---------------------------------
    d-9-11-----------------11----------11----------------------------------------------
    a------------------------------------------------------------------------------------
    e------------------------------------------------------------------------------------

    I slowed it down to 25% of the original speed, the notes should be ok, i didn't include all the slides though.
     
IMPORTANT: Treat everyone here with respect, no matter how difficult!
No sex, drug, political, religion or hate discussion permitted here.


  1. This site uses cookies to help personalise content, tailor your experience and to keep you logged in if you register.
    By continuing to use this site, you are consenting to our use of cookies.