Asher Guitars WD Music Products Amplified Parts Mod Kits DIY Nordstarnd Pickups Warmoth.com Reiland Pickups
Asher Guitars WD Music Products Amplified Parts Mod Kits DIY Nordstarnd Pickups Warmoth.com Reilander Pickups
Asher Guitars WD Music Products Amplified Parts Mod Kits DIY Nordstarnd Pickups Warmoth.com Reilander Pickups
Join TDPRI Today

Workin' Mans Blues Rhythm and Solo

Discussion in 'Tab, Tips, Theory and Technique' started by Bandit, Aug 19, 2006.

  1. Bandit

    Bandit Tele-Meister

    Age:
    40
    383
    Feb 25, 2005
    Canada, Ontario
    I gotta tab this out. I've seen it on here and I think this is actually what is on the record. It also works well with Georgia On A Fast Train "Billy Joe Shaver"

    Workin’ Man Blues
    guitar work James Burton

    I IV
    G C
    -------------------------------------------------------
    ------5-----7--5------------8-----10--8----------------
    ------5-h-6-7--5-h-6--------8-h-9-10--8-h-9------------
    ---5-----------------5--/10-----------------10---------
    -------------------------------------------------------
    -------------------------------------------------------

    I V
    G D
    -------------------------------------------------------
    ------5-----7--5------------108------12--10------------
    ------5-h-6-7--5-h-6--------10--h-11-12--10-h-11-------
    ---5-----------------5--/12----------------------12----
    -------------------------------------------------------
    -------------------------------------------------------

    IV I
    C G
    -----------------------------------------------------
    -----8-----10--8------------5-----7--5---------------
    -----8-h-9-10--8-h-9--------5-h-6-7--5-h-6-----------
    /10------------------10--5-----------------5---------
    -----------------------------------------------------
    -----------------------------------------------------


    Solo:

    Solo:
    G
    --------5-5---5-9-------5-5-------5-15-12-10-------10--------10
    ---5-h7-----7-----5-h-7 ----5-h-7------------10(12)---10(12)---
    ---------------------------------------------------------------
    ---------------------------------------------------------------
    ---------------------------------------------------------------
    ---------------------------------------------------------------


    --------10-----------------------------------------------------
    -10(12)-----(12)10---------------------------------------------
    ---------------------------------------------------------------
    ---------------------------------------------------------------
    ---------------------------------------------------------------
    ---------------------------------------------------------------
     
    Last edited: Aug 19, 2006
  2. Bandit

    Bandit Tele-Meister

    Age:
    40
    383
    Feb 25, 2005
    Canada, Ontario
    Workin Man Blues Tab Correction

    I IV
    G C
    -------------------------------------------------------
    ------3-----5--3------------8-----10--8----------------
    ------3-h-4-5--3-h-4--------8-h-9-10-8-h-9------------
    ---5-----------------5--/10-----------------10---------
    -------------------------------------------------------
    -------------------------------------------------------

    I V
    G D
    -------------------------------------------------------
    ------3-----5--3------------10--------12--10------------
    ------3-h-4-5--3-h-4--------10--h-11-12--10-h-11-------
    ---5-----------------5--/12----------------------12----
    -------------------------------------------------------
    -------------------------------------------------------

    IV I
    C G
    ----------------------------------------------------
    -----8-----10--8------------3------5---------------
    -----8-h-9-10--8-h-9--------3-h-4-5-h-4-----------
    /10------------------10--5----------------5--------
    ----------------------------------------------------
    ----------------------------------------------------


    Solo:

    Solo:
    G
    ---------3--3----3--/7----------3--3-----3---------15--12--10--
    ---3 h-5-------5---------3-h-5--------5-----3-h 5--------------
    ---------------------------------------------------------------
    ---------------------------------------------------------------
    ---------------------------------------------------------------
    ---------------------------------------------------------------


    --------10----------10--------10-------------------------------------
    -10(12)-----10(12)-----10(12)-----(12)10-8---------------------------
    -------------------------------------------------3---5---3---5---3---
    ----------------------------------------------/5---5---5---5---5-----
    ---------------------------------------------------------------------
    ----------------------------------------------------------------------


    -------------------------------------------------------
    ------3-----5--3--------------------------------------
    ------3-h-4-5--3-h-4--------5---7---5---7---5-------
    --/5-----------------5----/7---7---7---7---7---------
    -------------------------------------------------------
    -------------------------------------------------------

    ---------------------------------------------------------------------
    ----------------------------3-----5-3--------5-3-------5-3----------
    -----3---5---3---5---3-----3-h-4-5-3-h-4----5-3-h 4---5-3-h-4-----
    --/5---5---5---5---5----/5----------------5----------5----------5---
    --------------------------------------------------------------------
    --------------------------------------------------------------------
     
  3. emu!

    emu! Poster Extraordinaire

    Well, it's a tough job just gettin' by with nine wives and a kid!

    :p
     
  4. Forum Sponsor Sponsored posting

  5. PITT

    PITT Tele-Meister

    205
    Oct 18, 2007
    Chicago
    Ha! And I've been a lovin man dang near all my life...
     
IMPORTANT: Treat everyone here with respect, no matter how difficult!
No sex, drug, political, religion or hate discussion permitted here.


Share This Page