Asher Guitars WD Music Products Amplified Parts Mod Kits DIY Nordstarnd Pickups Warmoth.com
Asher Guitars WD Music Products Amplified Parts Mod Kits DIY Nordstarnd Pickups Warmoth.com
Asher Guitars WD Music Products Amplified Parts Mod Kits DIY Nordstarnd Pickups Warmoth.com

jimmy bryant s night rider

Discussion in 'Tab, Tips, Theory and Technique' started by johnny k, May 7, 2013.

  1. johnny k

    johnny k Tele-Afflicted

    Jan 15, 2011
    France
    i ve got one question about the main theme, how d you play it ? i can t quite figure it out

    e------------------------------------
    b---6-----6-5-------6-4-----------------
    g-------7--------6------------3-7-6-5---
    d-8---8--------8---------4-5------------

    or

    e-------------------------------
    b---6-----6-5-------6-4-------------
    g-------7---------7-----------3-7-6-5-
    d-8---8--------8---------4-5---------

    or
    e-------------------------------------
    b---6-----6-5-----5-4----------------------
    g-------7-------7----------3-7-6-5----------
    d-8---8-------8--------4-5----------------

    or

    e--------------------------------
    b----6------6-5------6-4-------------
    g---------7--------7----------3-7-6-5--
    d-8-----8--------8--------4-5---------

    if you figure it out...thanks
     

  2. stevorc321

    stevorc321 TDPRI Member

    Age:
    45
    47
    Sep 10, 2009
    Geraldton - Australia
    I play it

    e-------------------------------------------
    b----6-----6--5-----5-4-------------------------
    g--------7--------6---------------7-6-5---------
    d-8----8--------8--------4-5---8----------------
     

  3. johnny k

    johnny k Tele-Afflicted

    Jan 15, 2011
    France

  4. johnny k

    johnny k Tele-Afflicted

    Jan 15, 2011
    France

IMPORTANT: Treat everyone here with respect, no matter how difficult!
No sex, drug, political, religion or hate discussion permitted here.